19:18 

Не обращайте внимание...

BlackRose
Конец развития наступает тогда, когда перестаёшь задавать вопрос "Почему?"
Тореро
Вступление и проигрыш после каждого куплета:
1|---------------------------------------------------------------------------
2|---------------------------------------------------------------------------
3|---------------------------------------------------------------------------
4|---------------------------------------------------------9-7-----7-5-------
5|-7-9-10-7-9-10-5-7-9-5-7-9-3-5-7-3-5-7-2-3-2-3-2--7-9-10---0-9-5-0---7-3---
6|-0-------------0-----------0-----------0----------0------------------------

1|-------------------------------------------------------------
2|-------------------------------------------------------------
3|---------------------7-6-4---------------------7-6-4---------
4|----2-5-4------5---5---------------------5---5-------9-9-9---
5|--3-------5-2----7---------9-9-9-10-7-9----7---------7-7-7---
6|------------0--------------7-7-7---------------------0-0-0---

Вторая, более полная версия вступления
E------------------|---------------0--|------------------|------------------|
H--------------4---|------------3-----|---------------3--|------------------|
G-----------6------|------------------|------------4-----|---5-5-5-5--5--5-|
D--------0---------|---------1--------|---------0--------|---5-5-5-5--5--5-|
A-----2------------|------3-----------|------3-----------|---3-3-3-3--3--3-|
E--3---------------|---4--------------|---1--------------|------------------|
Then next and then this line with riff 1.
E------------------|------------------|------------------|------------------|
H------------------|------------------|------------------|------------------|
G------------------|------------------|------------------|------------------|
D------------------|------------------|------------------|------------------|
A-3--5--6--3--5--6-|-------5--------5-|-------3--------3-|------------------|
E------------------|-6--8-----6--8----|-4--6-----4--6----|-3--4--3--4--3-6-|
Riff 1
E------------------|------------------|------------------|------------------|
H------------------|------------------|------------------|------------------|
G------------------|------------------|------------------|------------------|
D-----------5------|--3---------------|--3---------------|------------------|
A--3--5--6---------|-----5------------|-----6--3---------|----3-6-5---------|
E------------------|--------6---------|-----------4------|--4--------6--3---|

Next line one guitar play with chords below tablature:
Riff 2
G#5 D#5 D5 C5 G5
E-----------------------|--------------------------------------|
H-------------4--3------|--------------------------------------|
G-------------------5---|--(5)--------------------------------|
D---6---3--6------------|------5-----5-----5-----5-----5-------|
A-----------------------|------5-----5-----5-----5-----5-------|
E-----------------------|--3-3-3-3-3-3-3-3-3-3-3-3-3-3-3-------|
G#5 D#5 D5 C5 G5
E-----------------------|--------------------------------------|
H-------------4--3------|--------------------------------------|
G-------------------5--|--12---------------------------------|
D---6---3--6------------|--------------------------------------|
A-----------------------|--------------------------------------|
E-----------------------|--------------------------------------|
Then C5 8x4=32
I verse
gtr. 1 - tablature
gtr. 2 - chords below tab
C5 8x B5 8x G#5 8x G5 8x
E--------|--------|--------|-------|----------------|
H--------|--------|--------|-------|----------------| Play this line
G--5-----|--3-----|--------|-------|----------------| 2 times
D--5-----|--3-----|--6-----|-------|-----5----5-----|
A--------|--------|--6-----|--5----|-----5----5-----|
E--------|--------|--------|--5----|---3-3--3-3-----|
gtr. 2 /
Chorus:
Play riff 2 and step to next line.
C5 A#5 G#5 G5
E-----------|-------|---------------|-----------|-------|------------------|
H-----------|-------|---------------|-----------|-------|------------------|
G--5-5-5-5--|--3----|---------------|-----------|-------|------------------|
D--5-5-5-5--|--3----|--8-7-8-7-8-7--|--6-6-6-6--|--5----|---5-4-5-4-5-4----|
A-----------|-------|--6-5-6-5-6-5--|--6-6-6-6--|--5----|---3-2-3-2-3-2----|
E-----------|-------|----gtr.2--/--|-----------|-------|-----gtr.2--/----|
E------------------------------------------------------------------|
H------------------------------------------------------------------|
G------------------------------------------------------------------|
D--3-3-3-3-3-3-3-3-3-3-3-3-3-3-3-3-6-6-6-6-6-6-6-6-6-6-6-6-6-6-6-6-|
A--3-3-3-3-3-3-3-3-3-3-3-3-3-3-3-3-6-6-6-6-6-6-6-6-6-6-6-6-6-6-6-6-|
E--1-1-1-1-1-1-1-1-1-1-1-1-1-1-1-1-4-4-4-4-4-4-4-4-4-4-4-4-4-4-4-4-|
16 x / 16 x /
E-----------------------------------|
H-----------------------------------|
G-----------------------------------|
D---------------------------5--5----|
A---3--2-----5--3--2--3--2----------|
E---------3-------------------------|
II verse as I verse
Chorus and 6 times C5
After that play riff 2 and goto solo.
Solo :
E-------------------/18--20-----------------13----------------------|
H--13~~---11~~-----------------15--15---16------16--15--------------|
G-------------------------------------------------------12----------|
D-------------------------------------------------------------------|
A-------------------------------------------------------------------|
E-------------------------------------------------------------------|
E-------------------------------------------------------------------|
H-------------------------------------------------------------------|
G---12h13h15--13--12------------------------------------------------|
D---------------------15--13----------------------------------------|
A-------------------------------------------------------------------|
E-------------------------------------------------------------------|
E-------------------------------------------------------------------|
H-------------------------------------------------------------------|
G-------------------------------------------------------------------|
D-------------------------------------------------------------------|
A-------------------------------------------------------------------|
E-------------------------------------------------------------------|
III Verse.
Chorus and outro.
Outro:
rit.
E------------------------------------------------------------------|
H------------------------------------------------------------------|
G---0-4-0-4-0-5-0-5-0-7-0-7-0-8-0-8-0-10-0-10-0-11-0-11-0-12~~~~~--|
D------------------------------------------------------------------|
A------------------------------------------------------------------|
E------------------------------------------------------------------|
C5
E----------------------------------|
H----------------------------------|
G----------------------------------|
D--10-10-10-10----10----10--------|
A--10-10-10-10----10----10--------|
E---8--8--8--8-----8-----8--------|
The end
Dm C
Эй, тореро, жизнь как миг
__Bb___________ A
Опять звучит трубы призывный зов
Dm______ ___C
Эй, тореро, ты или бык
__ Bb_________ __A
Качается чаша весов
_Bb____ Gm6 Bb A7
Бог хранит те-бя
_ Bb____ _ Gm6 Bb A7
Смерть щадит тебя---а----а

Dm ___________C6
Неба белый платок
___Bbmaj7 __________A7
Кровь и желтый песок
____Gm_______ ____Gm7_________A7
Крик отчаянья, бык живая мишень
__ Dm_______________C6
Под восторженный вой
___Bb__ _________A
Ты играешь судьбой
__ Gm___ __________Gm7 _______________A7
Пусть не знает никто что творится в душе
Эй, тореро, сын вдовы
Твой красный плащ твой траурный покров
Эй, тореро, ты будешь убит
Под песню мадридских часов
Бог хранит тебя
Смерть щадит тебя-а-а

Неба белый платок
Кровь и желтый песок
Крик отчаянья бык живая мишень
Под восторженный вой
Ты играешь собой
Пусть не знает никто что творится в душе



@музыка: тум-тум-тум-тум....тум-тум-тум...ту-тум-ту-тум...ту-ту-ту-тум....

@настроение: г

URL
Комментирование для вас недоступно.
Для того, чтобы получить возможность комментировать, авторизуйтесь:
 
РегистрацияЗабыли пароль?

In vino veritas или Хроники Северных Цветов

главная